Beyond Guitar

Click here to sign up for our newsletter

Careless Whisper by Naudo

Free Guitar Tab From BeyondGuitar.com!

Careless Whisper, as arranged and performed by Naudo on YouTube.

Tired of tabs that have incorrect notes, look confusing, or are just plain wrong? Me too! On BeyondGuitar.com, all tabs are written by a person with a Masters Degree in Music. Sweet!

The video guitar lesson that accompanies this tab can be found at: BeyondGuitar.com


|-3-1------3--1----|-1-0--------|------------------------|
|-----1---------1--|-----1------|-----------0h1-3-3/5-0--|
|--------2---------|-------2----|-------0-2--------------|
|-0----------------|---------3--|-2-2h3------------------|
|------------------|------------|------------------------|
|------------------|-1----------|-0----------------------|
						thumb


|---7p5-----5h7p5-0------|-3-1------3--1----|
|---5---5-----------1----|-----1---------1--|
|---5-----5-----------2--|--------2---------|
|------------------------|-0----------------|
|-0----------------------|------------------|
|------------------------|------------------|



|-1-0--------|----------------------|--------|
|-----1------|-----------0-1-3-3h5--|-3h5----|
|-------2----|-------0-2------------|--------|
|---------3--|-2-2h3----------------|--------|
|------------|----------------------|--------|
|-1----------|-0--------------------|--------|