Beyond Guitar

Click here to sign up for our newsletter

Chautauqua by Andy Schiller

Free Guitar Tab From BeyondGuitar.com!

Chautauqua, by Andy Schiller 

|-------------||----2--2---2--0-5----3---|-2-----2--0--------------||
|-------------||----0--0---0--0-0----0---|-0-----0----0------------||
|---0---------||*---0--0---0--0-0----0---|-0-----0-------0--------*||
|---------0---||*------------------------|---------------------0--*||
|-------------||-------------------------|-------------------------||
|-0--0--2--2--||-3--3--3--3--3--3--3--3--|-0--0--0--0--0--0--2--2--||




|----2--2----3--0---------|----2--2----3--0---------|
|----3--3----------3--0---|----0--0----------3--0---|
|----0--0----------------0|----0--0----------------0|
|-------------------------|-------------------------|
|-3--3--3--3--3--3--3--3--|-2--2--2--2--2--2--2--2--|
|-------------------------|-------------------------|




|------------------0------|-----------------0------|
|----3--3----3--1--1--1--1|---3--3----3--2--2--2---|
|----3--3----3--2-----2--2|---0--0----0--0-----0---|
|-------------------------|------------------------|
|-1--1--1--1--1--1--1--1--|0--0--0--0--0--0--2--2--|
|-------------------------|------------------------|



©2009 Andy Schiller. All Rights Reserved.