Beyond Guitar

Click here to sign up for our newsletter

Another Brick in the Wall by Faculty

Free Guitar Tab From BeyondGuitar.com!


        First, there are at least two guitar parts to this. The first is easy.
w/chorus, delay and palm muting
e-------------------------------------------------------------------------------------------------
b-------------------------------------------------------------------------------------------------
g-------------------------------------------------------------------------------------------------
d-------------------------------------------------------------------------------------------------
a-5--5--5--5--5--5--5--5--5--5--5--5--5--5--------------------------------------------------------
E-------------------------------------------------------------------------------------------------
        This is repeated through most of the song. You should be able to get the feel of it by
listening to the CD. (By the way, I LOVE this CD.)

        Also at the begining there is a part that may be a synth but can be played on guitar. I
just use it as part of the lead guitars part.
w/tremlo, distortion and delay
~-Let note hang.
e-------------------------------------------------------------------------------------------------
b--8~~7~~8~~7~~~~0~~~~~~~~~~~~~~8~~7~~8~~7~~0~~~~~~~~~~-------------------------------------------
g-------------------------------------------------------------------------------------------------
d-------------------------------------------------------------------------------------------------
a-------------------------------------------------------------------------------------------------
E-------------------------------------------------------------------------------------------------

        Now the main guitar part. Use a fuzzy distortion. If you have a Digitech RP7, use the
compressor, equalizer and noise gate. (I ave an RP7, thats why I used it, but you can use other
stuff.)(Duh!)
~-Let note hang.
e-------------------------------------------------------------------------------------------------
b-------------------------------------------------------------------------------------------------
g-------------------------------------------------------------------------------------------------
d-------------------------------------------------------------------------------------------------
a10-10-10~~~~~~10-10-10~~~~~~~~~~10-10-10~~~~~~~~~~10-10-10~~~~~~~~~~~~~~~~~~~~~------------------
E-------------------------------------------------------------------------------------------------
                                             Hey, teacher, leave them kids alone
e-------------------------------------------------------------------------------------------------
b-------------------------------------------------------------------------------------------------
g-------------------------------------------------------------------------------------------------
d-------------------------------------------------------------------------------------------------
a----8~~~~~~~~~~~~~~~7~~~~~~~~~~~~~~~~~~~~~~~~~~~~~-----------------------------------------------
E-------------------------------------------------------------------------------------------------
     All in all your just another brick in the wall
e-------------------------------------------------------------------------------------------------
b-------------------------------------------------------------------------------------------------
g-------------------------------------------------------------------------------------------------
d-------------------------------------------------------------------------------------------------
a------------------------0--3---------------------------------------------------------------------
E-------------------------------------------------------------------------------------------------
     We don't need no education
This is the solo-ish part of the song.
e-------------------------------------------------------------------------------------------------
b-------------------------------------------------------------------------------------------------
g-------------------------------------------------------------------------------------------------
d-------------------------------------------------------------------------------------------------
a-----3--5--5--5--5p0h3-5--5--5--5p0h3-5--5--5--5p0h3-5--5--5--5p0h3-5--5--5--5p0h3-5--5--5--5p0h3
E-------------------------------------------------------------------------------------------------