Beyond Guitar

Click here to sign up for our newsletter

Firework by Katy Perry

Free Guitar Tab From BeyondGuitar.com!

Artist: Katy Perry 
Song: Firework
Tuning: DADGBE
This tab has been edited and corrected by BeyondGuitar.com.

Verse: Gtr1
|-----------------------------------------------------------------------|
|-----------------------------------------------------------------------|
|-------------------1010101010101010\66666666---------------------------|
|-66666666-88888888-1010101010101010\66666666---------------------------|
|-66666666-88888888-8-8-8-8-8-8-8-8-\44444444---------------------------|
|-66666666-88888888-----------------------------------------------------|
pm........ ........ . . . . . . . .  ........         x5


Verse: gtr2
|-----------------------------------------------------------------------|
|-----------------------------------------------------------------------|
|-----------------------------------------------------------------------|
|-----------------------------------------------------------------------|
|-------------------8-8-8-8-8-8-8-8-\44444444---------------------------|
|-66666666-88888888-----------------------------------------------------|
                                                     X5

Pre Chorus(you just gotta ignite..)
gtr1
|-----------------------------------------------------------------------|
|-----------------------------------------------------------------------|
|-----------------10-10-10-10-10\6-6-6-6--------------------------------|
|-6-6-6-6-8-8-8-8-10-10-10-10-10\6-6-6-6--------------------------------|
|-6-6-6-6-8-8-8-8-8--8--8--8--8-\4-4-4-4--------------------------------|
|-6-6-6-6-8-8-8-8-------------------------------------------------x3----|
Pm. . . . . . . . .  .  .  .  .  . . . .


|-----------------------------------------------------------------------|
|-----------------------------------------------------------------------|
|-----------------10-10-10-10-10\6-6-6-6--------------------------------|
|-6-6-6-6-8-8-8-8-10-10-10-10-10\6-6-6-6--------------------------------|
|-6-6-6-6-8-8-8-8-8--8--8--8--8-\4-4-4-4--------------------------------|
|-6-6-6-6-8-8-8-8-------------------------------------------------x1----|


Gtr2
|-----------------------------------------------------------------------|
|--11-9-11-9-12-11-12-11-9--9--9--9-------------------------------------|
|-------------------------11-11-11-11-----------------------------------|
|-----------------------------------------------------------------------|
|-----------------------------------------------------------------------|
|-----------------------------------------------------------------x4----|


Chorus: (cuz baby your a firework....)
|-----------------------------------------------------------------------|
|-----------------------------------------------------------------------|
|-------------------1010101010101010\66666666---------------------------|
|-66666666-88888888-1010101010101010\66666666---------------------------|
|-66666666-88888888-8-8-8-8-8-8-8-8-\44444444---------------------------|
|-66666666-88888888-----------------------------------------------x2----|

Another Verse (x4)
Pre Chorus (ignite the light) (x4)
Chorus (x4)

Bridge (boom boom boom)
Gtr1:
|--------------------------------------------------------------------|
|--------------------------------------------------------------------|
|-10101010101010101010101010101010-6666666666666666------------------|
|-10101010101010101010101010101010-6666666666666666-6666666666666666-|
|-8 8 8 8 8 8 8 8 8 8 8 8 8 8 8 8 -4444444444444444-6666666666666666-|
|---------------------------------------------------4444444444444444-|


|------------------|
|------------------|
|-8888888888888888-|
|-8888888888888888-|
|-6666666666666666-|
|------------------|  x1


Gtr2:
|-----------------------------------------------------------------------|
|------------------1414141414141414------------------1313131313131313---|
|-1010101010101010------------------1414141414141414--------------------|
|-----------------------------------------------------------------------|
|-----------------------------------------------------------------------|
|-----------------------------------------------------------------------|  x1

Pre Chorus (x2)
Chorus Till Finish

Full Structure
Verse x5
Prechorus x4
Chorus x2
Verse x4
Prechorus x4
Chorus x4
Bridge x1
Prechorus x2 
Chorus Till Finish