Beyond Guitar

Click here to sign up for our newsletter

Here Without You by 3 Doors Down

Free Guitar Tab From BeyondGuitar.com!

Here Without You, by 3 Doors Down.
This tab has been checked for accuracy by BeyondGuitar.com.
A video guitar lesson to accompany this tabg can be found at:
http://www.beyondguitar.com/here_without_you_3_doors_down.html

||---------------------------------|-------------------------------|
||---------3-----2-----2---3-------|-----------------------2-------|
||.------4---4-----4-----4---4-----|-------0-----------2-------2---|
||.----4-------4-----4-------------|-----0---0-------2-------------|
||-2---------------------------2-0-|---2-------0-0-----------------|
||---------------------------------|-3-----------------------------|



|---------------------------------|-------------------------------||
|---------3-----2-----2---3-------|---------2-----3-----2---3s5---||
|-------4---4-----4-----4---4-----|-------2---2-----2-----2------.||
|-----4-------4-----4---------4---|-----2-------2-----2----------.||
|-2-----------------------------2-|-0-----------------------------||
|---------------------------------|-------------------------------||




||---------------------------------|-------------------------------|
||---------3-----2-----2---3-------|-----------------------2-------|
||.------4---4-----4-----4---4-----|-------0-----------2-----2-----|
||.----4-------4-----4-------------|-----0---0-------2---2-----2---|
||-2---------------------------2-0-|---2-------0-0---------------0-|
||---------------------------------|-3-----------------------------|



|---------------------------------|-------------------------------||
|---------3-----2-----2---3-------|---------2-----3-----2---3s5---||
|-------4---4-----4-----4---4-----|-------2---2-----2-----2------.||
|-----4-------4-----4---------4---|-----2-------2-----2----------.||
|-2-----------------------------2-|-0-----------------------------||
|---------------------------------|-------------------------------||




||---------0-----2-------3-2-0-----|---------------5-----3---2---0---|
||-------3---3-------3---------3---|---------2---------2---2---2---2-|
||.----2-------2-------2-----------|-------2---2---------------------|
||.0-------------------------------|-----2-------2-------------------|
||---------------------------------|-0-------------------------------|
||---------------------------------|---------------------------------|



|---------------0---------0-------|--------------------------------||
|---------3---------3-------3-----|------------------------2-------||
|-------4---4---------4-------4---|-------0------------2-----2----.||
|-----4-------4-----------------4-|-----0---0--------2---2-----2--.||
|-2-------------------------------|---2-------0-0----------------0-||
|---------------------------------|-3------------------------------||