Beyond Guitar

Click here to sign up for our newsletter

Joy to the World by Christmas

Free Guitar Tab From BeyondGuitar.com!


Joy to the World

|-5-420---|--------0|-2--24--4|-5---5--5|-54200--5|-54200---|------0----|-----------|--5-20----|---------|
|--------3|-2-0-----|---------|----2-2--|------32-|------322|-22223---32|-000023--20|------323-|-2-0-----|
|---------|-----2---|---------|---2---2-|---------|---------|-----------|-----------|-2--------|-----2---|
|---------|---------|-0-0-----|--2------|---------|---------|-----------|-----------|----------|---------|
|-0-0-0-0-|-0-0-0-0-|---------|-0-------|-0-0-0-0-|-0-0-0-0-|-0-0--0-0--|-----------|-0-0-0-0--|-0-0-0-0-|
|---------|---------|-----0-0-|---------|---------|---------|-----------|-0-0--0-0--|----------|---------|



|-5-420---|--------0|-2--24--4|-5---5--5|-54200--5|-54200---|------0----|-----------|--5-20----|---------|
|-5-532--3|-2-0----2|-3--35--5|-5--2-2-5|-55322325|-55322322|-222232--32|-000023--20|--5-32323-|-2-0-----|
|--------4|-2-1-2---|---------|---2---2-|------43-|------422|-22224---42|-111124--21|-2----424-|-2-1-2---|
|---------|-----2---|-0-0-----|--2------|---------|---------|-----------|-----------|-2--------|-----2---|
|-0-0-0-0-|-0-0-0-0-|---------|-0-------|-0-0-0-0-|-0-0-0-0-|-0-0--0-0--|-----------|-0-0-0-0--|-0-0-0-0-|
|---------|---------|-----0-0-|---------|---------|---------|-----------|-0-0--0-0--|----------|---------|