Beyond Guitar

Click here to sign up for our newsletter

All Day, and All Of The Night by Kinks

Free Guitar Tab From BeyondGuitar.com!

All Day and All of the Night
Kinks

Artist: The Kinks
Song: All Day And All Of The Night
Tabbed By: Jesus

(Intro)
|------------------------|
|------------------------|
|------------------------|
|-3-5--5-3--3-8-8-8-5----|
|-3-5--5-3--3-8-8-8-5----|
|-1-3--3-1--1-6-6-6-3----|


|-------------------------|
|-------------------------|0:23
|-------------------------|
|-8-8-8-8-8--7-7-7-7-7----|
|-8-8-8-8-8--8-8-8-8-8----|
|-6-6-6-6-6--5-5-5-5-5----|


|-------------------------|
|-------------------------|0:27
|-------------------------|
|-7--7-5--5-10-10-10-7----|
|-7--7-5--5-10-10-10-7----|
|-5--5-3--3--8--8--8-5----|


|-------------------------|
|-------------------------|0:30
|-7--7-5--5-10-10-10-7----|
|-7--7-5--5-10-10-10-7----|
|-5--5-3--3--8--8--8-5----|
|-------------------------|


(Solo)
|-------------------------------------------------------------|
|-------------------------------------------------------------|1:23
|-5b6-5b6-5b6-5b6-5b6-3----3---3---3---3-----3---3---3---3----|
|------------------------5---5---5---5---3h5---5---5---5------|
|-------------------------------------------------------------|
|-------------------------------------------------------------|


|---------------------------------------------------------------------------|
|---------------------------------------------------------------------------|
|-----3-----3-----3-----3-----3-----3-----3-----3----5b6-5b6-5b6-5b6-5p3----|
|-3h5---3h5---3h5---3h5---3h5---3h5---3h5---3h5--------------------------5--|
|---------------------------------------------------------------------------|
|---------------------------------------------------------------------------|


|----------------15-15-----------------------------------------------------|
|-------11-13-15-------15p13-----------------------------------------------|
|----------------------------15-12--15-12-15-12-15-12-15-12-15-12-15-12----|
|--------------------------------------------------------------------------|
|-8-/10--------------------------------------------------------------------|
|--------------------------------------------------------------------------|


|------------------------------------------------------------------|
|-13----13----13----13---------13----13----13----13----------------|
|-15b17-15b17-15b17-15b17==12--15b17-15b17-15b17-15b17-12----------|
|------------------------------------------------------------------|
|------------------------------------------------------------------|
|------------------------------------------------------------------|

|-------------------------------------------------------------------------|
|-------11-------11-------11-------11-------11-------11-------11----------|
|-10h12----10h12----10h12----10h12----10h12----10h12----10h12----10-10----|
|-------------------------------------------------------------------------|
|-------------------------------------------------------------------------|
|-------------------------------------------------------------------------|

I know the solo is somewhat wrong but just try to improvise some of it
to try and make it sound right.




Tablature Legend
----------------
 h   - hammer-on
 p   - pull-off
 b   - bend
 pb  - pre-bend
 r   - bend release (if no number after the r, then release immediately)
 /\  - slide into or out of (from/to "nowhere")
 s   - legato slide
 S   - shift slide
  - natural harmonic
[n]  - artificial harmonic
n(n) - tapped harmonic
 ~   - vibrato
 tr  - trill
 T   - tap
 TP  - trem. picking
 PM  - palm muting
\n/  - tremolo bar dip; n = amount to dip
 \n  - tremolo bar down
 n/  - tremolo bar up
/n\  - tremolo bar inverted dip
 =   - hold bend; also acts as connecting device for hammers/pulls
 <>  - volume swell (louder/softer)
 x   - on rhythm slash represents muted slash
 o   - on rhythm slash represents single note slash

Misc Legend
-----------
 |  - bar
||  - double bar
||o - repeat start
o|| - repeat end
*|  - double bar (ending)
 :  - bar (freetime)
 $  - Segno
 &  - Coda
Tempo markers -  = BPM(8/16=s8/s16), where s8 = swing 8ths, s16 = swing 16ths