Beyond Guitar

Click here to sign up for our newsletter

Let it Be, Solo by Beatles

Free Guitar Tab From BeyondGuitar.com!

Beatles - Let It Be (Solo)

e----------------------------------------------------|
b----------------------------------------------------|
g--5-----------------------------------5-7^----^7-5--|
d—-5h7--5--------------5-5---5-----5h7---------------|
a----------7>5--3----7-----7-------------------------|
e----------------------------------------------------|


e----8------------5-----------------------------------------------------|
b---------------------------------------------------------------8-------|
g--9---9>7-5h7-7^---^7-5----------------------------5-5---5-7>9---------|
d—------------------------7p5-7-5----------------5h7----7---------------|
a---------------------------------7>5-3h5-3-----------------------------|
e-----------------------------------------------------------------------|


e-------------------8-^10--^10-8h10-8---^15-----------------------------|
b----8---8-10--8h10-------------------------^15-13-15-13-^15-13h15-13---|
g->9--^9----------------------------------------------------------------|
d—----------------------------------------------------------------------|
a-----------------------------------------------------------------------|
e-----------------------------------------------------------------------|