Beyond Guitar

Click here to sign up for our newsletter

Little Wing by

Free Guitar Tab From BeyondGuitar.com!

  LITTLE WING
                        As recorded by Stevie Ray Vaughan
                     (From the 1991 Album THE SKY IS CRYING)

Words and Music by Jimi Hendrix

 Intro
  Q=60(16=s16)
 4/4
  Gtr I
|---12\-|------------------------------|-------3h5p3-3----------------------|
|---12\-|----x-x----------5-(5)-5------|---------3---3-----3-3-3-(3)-3------|
|-x-12\-|----x-x--------5h7-(7)-5------|---------0-------4h5-5-4h=5--4------|
|-x-----|----x-x------5-----------5h7\-|-------------------------------5----|
|-------|------x--5h7------------------|-----x------------------------------|
|-------|-0----------------------------|-2s3-3---------3-----------------3s=|


|-----------------------------------------|
|---5---------------5-5-----------5-------|
|-----5-----------5h7-5-----5-----5-----5-|
|-------x-----5---------5h7-7-----5-----5-|
|---------5-7-----------------5h7---5h7---|
|-5-------------0-------------------------|


|-----3h5-3-3-------------------------|
|-------3-3-------------5-----5-------|
|-------0-0---0-----5-5-5-----5-------|
|-------------0-----5-7-7s8s7-5-------|
|---------------5s7-------------7-----|
|-0-0-----------------------------5s==|


                                   PM  PM
|----7h9-9h10-7---------7-(7)\-------6---|
|------7------7-10b10.5-7-(7)\-------6---|
|----------------------------------------|
|----------------------------------------|
|----------------------------------------|
|-7----------------------------5s6-6---0-|


|-5-------------------------------------------|
|-5---------------5---------------------------|
|-5-5-5---5-------5h7p5-----5-5---------------|
|---7-7-7-5h7p5---------7-5h7-5-----5---------|
|---------------7---------------5h7-7-5h7-7---|
|---------------------------------------------|


                                 2/4
                                    PM----------|
|-----5s7-7s5---5s3---3-(3)-3---|-------------------|
|-----3s5-5s3---3s1---1-(1)-1---|-------------------|
|-----4s6-6s4---4s2---2-(2)-2-0-|-------5---------5-|
|-----5s7-----5-------3-(3)---0-|---------5---------|
|-------------------------------|-3-3-3-----3-3-3---|
|-3-3---------3-----1-----------|-------------------|


 4/4
|------------------------------------------|
|------------------------------------------|
|-(5)s7-----7-----------7-7-7-7--7------7--|
|-------------7---7---7h9-9-7---------7-7--|
|--3s=5-5-5-----5-5-------------10-10-7-7--|
|-------------------0----------------------|


                      Theme
|-------------------||----------0------------|
|-------------------||-----------------------|
|---7---------------||-----------------------|
|---7---------------||-0tr2----(0tr2)--(0)---|
|-7h9---------0-0---||-----------------------|
|-----------3-----3-||---------------------0-|


|-------------------------------------|
|-------------------------------------|
|---------------5-----5-----5-5-------|
|---------5---5h7-7-5h7-7-5h7-5---5-5-|
|-----5s7---7-------------------5h7-5-|
|-3-----------------------------------|


|-----5-7-5h7p5-------5---5-------------5-----------------------|
|-----5-5-5-----8b8.5-5-8-5-----------5---8-------8-------------|
|---------------------------7b9==(7)r-------7b9==(7)r-7-5-------|
|---------------------------------------------------------7-----|
|-----------------------------------------------------------5h7-|
|-5-5-----------------------------------------------------------|


|-------------------<12>-(<12>)------|
|--------------<12>-------------x----|
|---------<12>------------------x----|
|----<12>----------------------------|
|------------------------------------|
|-0-------------------------------0S=|


|-----7-------7---9--8p7-----------7--------------------|
|-----7-10-7-(7)-(7)-----10b10.5-7---10-----------------|
|---------------------------------------9h10-9-7b7.5----|
|----------------------------------------------------9\-|
|-------------------------------------------------------|
|-7-----------------------------------------------------|


|--!0----------------------------------|
|--!0-------------5---5----------------|
|--!0---------5h7-7-5-5---5-5----------|
|---------5-------------5h7-7-------5--|
|-----5-7---7-----------------5h7-5h7--|
|--------------------------------------|


                                       2/4
|---(5)-5s7-7s5---5s3---3-(3)-3-----3-|-------------|
|---(3)-3s5-5s3---3s1---1-(1)-----1---|-------------|
|-------4s6-6s4---4s2---2-(2)---2-2---|-------5-----|
|-------5s7-----5-----3---------3-----|-------5-5---|
|-------------------------------------|-3-3-3---3-3-|
|-3--3--------------------------------|-------------|


 4/4
|---------------------------------|-------------------------------||
|---------7-----------------------|-------------------------------||
|-5s7-----7-7-----7-7-7-----------|---7-----------12-14b15==(14)r-||
|-5s7-7---7-7-7-7h9-7-7--7----7---|---7-------14------------------||
|-3s5-5-5-----0---------10-10-7-7-|-7h9---------------------------||
|-------------0----------0--------|-------------------------------||


                                  ~~~~~~~~~~~~~~
|-----------------------------------------------------------|
|-----------------------------------------------------------|
|-14-12h14b14.5==(14)r-12-------(14)-(14)-------------------|
|-------------------------14-14-(14)-(14)--(14)-12----------|
|--------------------------------------------------14-13-12-|
|-----------------------------------------------------------|


                        ~~
|---------------------------------------|
|---------------------------------------|
|---------------------------------------|
|-------------------12------x-----------|
|-------10-12-13s14----12-(12)-10-12-10-|
|----12---------------------------------|


                              ~~
|---------------------------------------------------------------------|
|---------------------------------------------------------------------|
|-------------------------------------------------12-14b14.5-14-12----|
|----------------------------------------12h14---------------------14-|
|-12s14-12s14-12s14-12s14-13-12-10-12-10------------------------------|
|----------------------------------------------12---------------------|


                                                ~~~~
|------------------------------------------------------------------------|
|-15---------------------------------------------------------------------|
|----14b16==(14)r-14-12b14==(12)r-12-----------14--(14)------------------|
|------------------------------------14----14-(14)------12---------------|
|----------------------------------------------------------14-13-12-10---|
|---------------------------------------12-------------------------------|


                               ~~
|-------12---------12---12-12----12--------------------------|
|-----------------------------14-12--------------------------|
|-------12-14b15==(14)r-14-12-14-12-14p12-14-12-14b16==(14)r-|
|----14------------------------------------------------------|
|------------------------------------------------------------|
|------------------------------------------------------------|


                                        ~~    ~~~~~
|----12------------------------------------------------------------------------|
|-12----12-15------------------------------------------------------------------|
|-------------14b16==(14)r-12-14-12----12--------------------------------------|
|-----------------------------------14----14p12b13----------------------12-14--|
|--------------------------------------------------14-13-12-10-12s13s14--------|
|------------------------------------------------------------------------------|


                                                             ~~~~
|------------------------------------------------------------------|
|----------(12)-12-------------------------------------------------|
|-12s14-14--12--12-------12-----------------------12---------------|
|------------------12h14-14-12-12-----------------12--------12-----|
|----------------------------------12h13h14-12h13h14-13-12-(12)-10-|
|------------------------------------------------------------------|


 2/4
             ~~~~
|-------------------------|
|-------------------------|
|-------------------------|
|-------12-(12)-----------|
|-12s14-----12---12-10----|
|----------------------12-|


 4/4
                  ~~~~~~~
|-----------------------------------------------------------|
|-----------------------------------------------------------|
|-------------------------------------------------12--------|
|---------------------------------------------12-(12)-12h14-|
|-10-12-12s13-10-12-(12)-10h12p10----10-12h14-14-(14)-------|
|---------------------------------12------------------------|


|-----------------------------------------||
|-------------------15--------------------||
|------12----14-12---------12-14----14-14-||
|--14-----14--------12--14-------14-------||
|------10----12-10---------10-12----12-12-||
|--12-----12------------12-------12-------||


|-------------------------------------------------------------|
|-------------------------------------------------------------|
|-12s14-14-12s14-14-14s12-12----------------12----------------|
|----------------------------12s14-14-12s14----14-12s14-(14)--|
|-10s12-12-10s12-12-12s10-10----------------10----------------|
|----------------------------10s12-12-10s12----12-10s12-(12)--|


|----14s15-15-15-15-15-15-15-15-15-15-12----------|
|-------------------------------------12----14----|
|----11s12-12-12-12-12-12-12-12-12-12-12-14-14----|
|----------------------------------------------14-|
|-------------------------------------------------|
|-------------------------------------------------|


|-------17----------22-------------------------------------------|
|-12----------------------------------12----15-15s17-17----------|
|-12-14-14-14s12----19-14h15-14s12----12-------------------------|
|----------------14----------------14----14-12-12s14-14----14----|
|----------------------------------------------------------------|
|-------------------------------------------------------12----12-|


            ~~                               ~~
|-----------------------------------------------------------------|
|-----------------------------------------------------------------|
|-------12-------------------------------------12-----------------|
|-14-------14-14p12----------------------12-14----14p12h14-12-----|
|-------------------14-13-12h13p12----------------------------14--|
|----12----------------------------15-12--------------------------|


|---------------12-12-12----------15--------------------------------------|
|----------------------------x-12-15-----------------------------------12-|
|---------------12-14-14h15-14-12----14pb16r(14)-12----12s14b16==(14)r----|
|------------14-------------------------------------14--------------------|
|-----xpxhx---------------------------------------------------------------|
|-12/---------------------------------------------------------------------|


                     ~~                ~~             ~~
|-12-----------------------------------x---------------------------------|
|----15-12-----------------------------x---------------------------------|
|----------14s16-12h14-12h14p12----12-12-----------------------------x---|
|-------------------------------14-------14p12----------------------12---|
|----------------------------------------------14-13-12-10-12-12s14------|
|------------------------------------------------------------------------|


|--------------15-15--------------15----------------------13---13-----------13\----------|
|--------------15-15--------------15---15-----------------13---13-----------13\----------|
|-14b16==(14)r-------14b16==(14)-(14)r(14)-0-12b14==(12)-(12)-(12)r-12b14==(12)r---/17---|
|------------------------------------------0-------------------------------------------0-|
|------------------------------------------0-------------------------------------0-----0-|
|----------------------------------------------------------------------------------------|


 2/4
|--------------------------|
|-----8-8--------8----8----|
|--9--9-7h9p7--9-7----7--9-|
|-10----------10---10---10-|
|-(0)----------------------|
|--------------------------|


 4/4
|-------------10----10----------10----10-------------10-10------|
|-------------10-10-10-------10-10-10-10-------10----10-10-10-0-|
|-------------11-12-11h12p11-11-11-12-11h12p11-11-11h12-11-11-0-|
|-10s12-12-12-12-------------12-12-------------12----------12---|
|---------------------------------------------------------------|
|--8s10-10-10---------------------------------------------------|


                              \0.5___/
|---<12>-(<12>)-(<12>)-(<12>)-0-----(0)-(0)----||
|---<12>-(<12>)-(<12>)-(<12>)-0-----(0)-(0)-0--||
|---<12>-(<12>)-(<12>)-(<12>)-0-----(0)-(0)-0--||
|-0-<12>-(<12>)-(<12>)-(<12>)-0-----(0)-(0)----||
|-0---------------------------0-----(0)-(0)----||
|-0---------------------------0-----(0)-(0)----||


|---------------------------------------------------------------------------------------12-|
|-15b17==(15)-(15)-(15)r-0-15b17==(15)r-15b17==(15)r-15b17==(15)r-15-12--------------12----|
|------------------(15)--0----------------------------------------------14b16==(14)r-------|
|------------------------0-----------------------------------------------------------------|
|------------------------------------------------------------------------------------------|
|------------------------------------------------------------------------------------------|


                                       ~~~~~                            ~~
|------------------------------------------12---------------------------x---x------------|
|---------------------------------------------15---------15-------------x---x------------|
|-14b16==(14)r(14)p12----14b16==(14)-(14)r-------14b16==(14)r-14p12----12-(12)-----------|
|---------------------14--------------------------------------------14---------14\-------|
|----------------------------------------------------------------------------------------|
|----------------------------------------------------------------------------------0S12--|


                         ~~                                                ~~~~~~~
|-----------------------------------------------------------15--------------------------|
|--------------------------------------------15-------------15--------------------------|
|-12-14-14b16==(14)r-12h14-12h14p12----12-14----14b16==(14)-14r14-(14)-12-14b14.5-------|
|-----------------------------------14--------------------------------------------14-12-|
|---------------------------------------------------------------------------------------|
|---------------------------------------------------------------------------------------|


         ~~                                     ~~~~~
|----------------------------------------------------12S0------|
|-------12-------------------------------------------12S0------|
|-------12-------------------------------------------12S0------|
|-14-------14-12h14p12----------------------12-14-14------14-0-|
|----------------------14-13-12h13p12------------------------0-|
|----12-------------------------------15-12--------------------|


                   ~~~~~~~                    ~~~
|-------------------------------------------------------------------------|
|-------------------------------------------------------0--------------12-|
|---------------------------[14]b16==([14])r-14s12-(12)-0-14b16==(14)r----|
|-14b16==(14)r-12-14-(14)-------------------------------0-----------------|
|---------------x---------0-----------------------------------------------|
|-------------------------0-----------------------------------------------|


                                         ~~~~~~~~~
|------------------------------------------------------------------------------------15---|
|-12h13-12h13-12h13-12h13-12----15b17==(15)-(15)r---15b17==(15)r(15)p12--------------15---|
|----------------------------12-------------------0---------------------14b16==(14)r------|
|-------------------------------------------------0---------------------------------------|
|-----------------------------------------------------------------------------------------|
|-----------------------------------------------------------------------------------------|


|--------------15-15--------------15---15-----------------13---13-----------------13\-----------|
|--------------15-15--------------15---15-----------------13---13-----------------13\-----------|
|-14b16==(14)r-------14b16==(14)-(14)r(14)-0-12b14==(12)-(12)-(12)r(12)-(12)b14==(12)r\---/14---|
|------------------------------------------0--------------------------------------------0-------|
|---------------------------------------------------------------------------------------0-----0-|
|---------------------------------------------------------------------------------------------0-|


 2/4
|------------------------|
|-8-8-8--------8----8----|
|-7-9-7h9p7----7----7----|
|-----------10---10---10-|
|------------------------|
|------------------------|


 4/4
|-------------10----10----------10----10-------------10-10------|
|-------------10-10-10-------10-10-10-10-------10----10-10-10-0-|
|-------------11-12-11h12p11-11-11-12-11h12p11-11-11h12-11-11-0-|
|-10s12-12-12-12-------------12-12-------------12----------12---|
|---------------------------------------------------------------|
|--8s12-10-10---------------------------------------------------|


                    \1_____/
|------------------------------------||
|---<12>-(<12>)-----0-----(0)--(0)---||
|---<12>-(<12>)---(12)---(12)-(12)-0-||
|-0-<12>-(<12>)---(12)---(12)-(12)-0-||
|-0----------------------------------||
|------------------------------------||


           ~~~~
|-----------------------------------------------------------------|
|-15b17==(15)--(15)r---0-15b17==(15)-(15)r(15)--------------12h15-|
|---------------15pb16-0-----------------------14b16==(14)r-------|
|----------------------0------------------------------------------|
|-----------------------------------------------------------------|
|-----------------------------------------------------------------|


                        TP           TP           TP           TP             TP
|-------------15----15-15-----------15-----------15-----------15-------------15---|
|-------------15-15-15-15-----------15-----------15-----------15-------------15---|
|-14b16==(14)----14-14-14r--14b16==(14)r-14b16==(14)r-14b16==(14)b16-14b16==(14)r-|
|---------------------------------------------------------------------------------|
|---------------------------------------------------------------------------------|
|---------------------------------------------------------------------------------|


                  ~~
|-------------------15----------------------------------------------------------------------------------------|
|-15-----(15)-15-15-15-15----------15---------15---15-15------------------------------------------------------|
|-14pb16r(14)-12-14-14-12h14p12----12-14b16==(14)r-14-12----12-16b18==(16)-(16)r-14b16==(14)r(14)p12----------|
|-------------------------------14-----------------------14------------------------------------------14-12-14-|
|-------------------------------------------------------------------------------------------------------------|
|-------------------------------------------------------------------------------------------------------------|


   ~~
|-----x-------0-0---0-------------0-------------------0---|
|-----x-----0---0-3-0-----------0-------------------3---3-|
|-12-12---------------2b4==(2)r-----2h3p2-0---0-2s4-----4-|
|-------14\---------------------------------2-------------|
|---------------------------------------------------------|
|-------------0-------------------------------------------|


       ~~~
|---------3---5b6==(5)r-3-5-(5)-3-------0-------------------------------0-----------------|
|-3s5-(5)---5---------------------5p3p0---3p0-------------------------0---3p0-------------|
|---------------------------------------------3p2p0---0-2b4==(2)-(2)r---------3p2p0---2h4-|
|---------------------------------------------------2-------------------------------2-----|
|-----------------------------------------------------------------------------------------|
|-----------------------------------------------------------------------------------------|


|-----------------------------------------------------------------------------|
|-3---------------------------------------------------------------------------|
|-4-4p2p0---2b3==(2)r-2p0---2p0-----------------------------------------------|
|---------2---------------2-----2-0h2-0-------------------0-------------------|
|---------------------------------------2-1-0h1p0-----1h2---0h1h0---0---0h2p0-|
|-------------------------------------------------3p0-------------3---3-------|


|----------3-3-------3-3-----------------13-13-13\-------------|
|----------3-3--3----3-3-----------------13-13-13\-------------|
|-2b4==(2)---2r-2pb4---2S12-12b14==(12)r-------12pb14\---/17---|
|------------------------------------------------------0-----0-|
|------------------------------------------------------0-----0-|
|--------------------------------------------------------------|


 2/4
|-----------8-8-----------8-8----|
|-----------8-8-------8---8-8----|
|-7b9==(7)r-----7b9==(7)r---7-9--|
|--------------------------------|
|--------------------------------|
|--------------------------------|


 4/4
|------------10-10--------10-10-------7--------------|
|------------10-10-10-----10-10-------7---7----7-----|
|-9b11==(9)r--------9pb11-----9-7-7---7-7-7--7-7---7-|
|---------------------------------7h9---7----7---7-7-|
|-------------------------------------------10---7---|
|----------------------------------------------------|


             \1   /
|--------------------------||
|-----<12>-----------------||
|-7-0-<12>---0---(0)-(0)-x-||
|-7-0-<12>---0---(0)-(0)-x-||
|-9---<12>---0---(0)-(0)-x-||
|------------0---(0)-(0)---||


|---------------|-----------------------|
|---------------|-----------------------|
|---------------|--------------------12-|
|-12tr14--------|-(12)----(12)--(12)-12-|
|---------------|-----------------------|
|---------------|-----------------------|


         ~~~~~~~~~~~~
|-------------------------------------------------|
|-------------------------------------------------|
|----------------------x--------------------------|
|------------------------x---------------12-14----|
|-14-13-12-(12)-(12)-------x----10-12s14----------|
|----------------------------12----------------12-|


|-----------------------------------------------------------------|
|-----------------------------------------------------------------|
|-14b16==(14)r-14-12-(12)-14--------------------------------------|
|----------------------------14-(14)-(14)-12----------------------|
|--------------------------------------------14-13-12----12-13-14-|
|-----------------------------------------------------15----------|


|---------------------------------------------------|
|---------------------------------------------------|
|---------------------------------------------------|
|-----------12tr14--------12tr14-(12)--------12tr14-|
|-12tr14-----------12tr14-------------12tr14--------|
|---------------------------------------------------|


|-----------------------------------------------------|
|-----------------------------------------------------|
|-----------------------------------------------------|
|---------------------------------------12tr14-12tr14-|
|-10tr12----10tr12--------10tr12-12tr14---------------|
|------------------10tr12-----------------------------|


   ~~
|----------------------12----12-------12-----------------|
|----------------------------------------%2