Beyond Guitar

Click here to sign up for our newsletter

Whiskey in the Jar by

Free Guitar Tab From BeyondGuitar.com!

G5          3 5 5 x x x 
F#5         2 4 4 x x x 
E5          0 2 2 x x x 
C5          x 3 5 5 x x 
Em          0 2 2 0 0 0 
C           x 3 2 0 1 0 
G           3 2 0 0 3 3 

Gtr I (D G C F A D) - 'James Hetfield - Rhythm w/dist'
Gtr II (D G C F A D) - 'Kirk Hammett - Rhythm / Lead w/dist and 
                        octaver doubling sound one octave below at certain parts'
Gtr III (D G C F A D) - 'Kirk Hammett - Lead w/dist'
Gtr IV (D G C F A D) - 'James Hetfield - Rhythm (Gtr I) clean w/tremolo'
Gtr V (D G C F A D) - 'Kirk Hammett - Rhythm clean (Gtr II wo/dist)'

Intro
  Q=136
 4/4
  Gtr I  |-Rhy Fig 1
  G5 F#5  E5                                       G5
  q  q    E E E E E  E E E        E E  E E E  E  E E
  |  |    | |   | |  |   |        | |    | |  |    |
  /  /    / /   / /  /   /        / /    / /  /    /

  Gtr II
                                              ~~~
                         |-3--|
  H       H       E  e E S S  S   E E  E E E  Q.
|-------|-----------------------|--------------------|
|-------|-----------------------|-8------------------|
|-------|-----------\7-7-7h9h11-|---9-11-7-9s12------|
|-------|-----------------------|--------------------|
|-------|-----------------------|--------------------|
|-------|-----------------------|--------------------|


    E  E E E   E  E E E
    |  |   |   |  |   |
    /  /   /   /  /   /

                      |-3--|
   +H         +E  e E S S  S
|----------------------------|
|----------------------------|
|-(12)-------(12)S7-7-7h9h11-|
|----------------------------|
|----------------------------|
|----------------------------|


                F#5            E5
  E E  E E q      q              E  E E E   E   E E E
  | |    | |      |              |  |   |   |   |   |
  / /    / /      /              /  /   /   /   /   /

                                 ~~~~
                                                    |-3--|
  E E  E E E  E  +E.  +S        +H         +E   e E S S  S
|----------------------------|-----------------------------|
|-8--------------------------|-----------------------------|
|---9-11-7-9s12-(12)-(12)b14r|=(12)-------(12)-\7-7-7h9h11-|
|----------------------------|-----------------------------|
|----------------------------|-----------------------------|
|----------------------------|-----------------------------|


                  G5
  E E E E E  E  E E     E  E E E   E   E E E
  | |   | |  |    |     |  |   |   |   |   |
  / /   / /  /    /     /  /   /   /   /   /

             ~~~~~~~~~~~~~~
                                           |-3-|
  E E E E E  Q.        +H         +E   e E S S S
|-------------------|----------------------------|
|-8---7-------------|----------------------------|
|---9---7-9s12------|-(12)-------(12)----0-0h2h4-|
|-------------------|-----------------\5---------|
|-------------------|----------------------------|
|-------------------|----------------------------|


                       Verse 1
       end Rhy Fig 1-||-Rhy Fig 2
                        G5                                E5
                                          Gtrs I, II
  E E E E   E E  E E     E  E E E E E E E   E E E E E E E E
  | |   |   | |    |     |  |   | | |   |   | |   | | |   |
  / /   /   / /    /     /  /   / / /   /   / /   / / /   /

  E E E E a E Q.        +H.           E E   W
|--------------------||-------------------|-----------------|
|-3------------------||-------------------|-----------------|
|---0-2-0-2s4-0------||-(0)---------------|-----------------|
|--------------------||-----------------5-|-----------------|
|--------------------||-----------------5-|-----------------|
|--------------------||-----------------3-|-----------------|


                                  C5
  E E E E E E E E   E E E E E E E E   E E E E E E E E
  | |   | | |   |   | |   | | |   |   | |   | | |   |
  / /   / / /   /   / /   / / /   /   / /   / / /   /
|-----------------|-----------------|-----------------|


                G5                      end Rhy Fig 2-|
  E E E E E E E E   E E E E E E E E   E E E E E E E E
  | |   | | |   |   | |   | | |   |   | |   | | |   |
  / /   / / /   /   / /   / / /   /   / /   / / /   /
|-----------------|-----------------|-----------------|


                               F#5  E5
  E E E E E E E E   E E E E q  q    E E E E E E E E
  | |   | | |   |   | |   | |  |    | |   | | |   |
  / /   / / /   /   / /   / /  /    / /   / / /   /
|-----------------|---------------|-----------------|


                C5                                  G5
  E E E E E E E E   E E E E E E E E   E E E E E E E E   E E E E E E E E
  | |   | | |   |   | |   | | |   |   | |   | | |   |   | |   | | |   |
  / /   / / /   /   / /   / / /   /   / /   / / /   /   / /   / / /   /
|-----------------|-----------------|-----------------|-----------------|


                          Interlude
               F#5 
  Gtr I
  E E E E q    q
  | |   | |    |         |-w/Rhy Fig 1
  / /   / /    / 

  Gtr II
          PM                           ~~~
                 |-3--|
  E E E E E  e E S S  S    E E  E E E  Q.
|-----------------------||--------------------|
|-----------------------||-8------------------|
|-----------\7-7-7h9h11-||---9-11-7-9s12------|
|-5-5---5---------------||--------------------|
|-5-5---5---------------||--------------------|
|-3-3---3-0-------------||--------------------|


    ~~~~
                       |-3--|
   +H         +E   e E S S  S
|-----------------------------|
|-----------------------------|
|-(12)-------(12)-\7-7-7h9h11-|
|-----------------------------|
|-----------------------------|
|-----------------------------|


                                   ~~~~
  E E  E E E  E  +E.    +S        +H         +E  E E E
|------------------------------|-----------------------|
|-8----------------------------|---------------------8-|
|---9-11-7-9s12-(12)---(12)b14r|=(12)-------(12)S7-9---|
|------------------------------|-----------------------|
|------------------------------|-----------------------|
|------------------------------|-----------------------|


                                   ~          ~~
                                                                |-3-|
   E      +E    E      +E   a  +E  Q   S  S   Q.     E +E   e E S S S
|-------------------------------------------|-------------------------|
|-10b12==(10)r-10b12==(10)-10r(10)-8---8h10p|=8------8-(8)\-----------|
|-------------------------------------------|-----------------0-0h2h4-|
|-------------------------------------------|---------------5---------|
|-------------------------------------------|-------------------------|
|-------------------------------------------|-------------------------|


  E E E E S   +S  Q.       +W
|------------------------|-------------------||
|-3----------------------|-------------------||
|---0-2-0-2b3r(2)p0------|-(0)---------------||
|------------------------|-------------------||
|------------------------|-------------------||
|------------------------|-------------------||


 Verse 2
Rhy Fig 2

Rhy Fig 2 (1st 7 bars)


                     Chorus
  Gtr II
  E E E E E  E E E    E E E E E  E E E    E  E E E E E E E
|------------------||------------------|-------------------|
|------------------||------------------|-------------------|
|-----------/7-7-7-||-7-7-7-7-7--7-7-7-|--7--7-7-7-7-6-6-5-|
|-5-5---5-5--------||------------------|-------------------|
|-5-5---5-5-/5-5-5-||-5-5-5-5-5--5-5-5-|--5--5-5-5-5-4-4-3-|
|-3-3---3-3--------||------------------|-------------------|
|-Rhy Fill 1       ||-Rhy Fig 3A
|
| Gtr I
| E E E E E  E E E    Q   E E Q.     E   +E  Q   E E E E E
|------------------||-2---2-3-2------3-|-(3)-2-------------|
|----------------3-||-3---3-3-3------3-|-(3)-3---3-3-3-3---|
|----------------2-||-2---2-2-2------2-|-(2)-2---2-2-2-2-0-|
|-5-5---5-5--5---0-||-0---0-0-0------0-|-(0)-0---0-0-0-0-0-|
|-5-5---5-5--5-----||------------------|-------------------|
|-3-3---3-3--3-----||------------------|-------------------|
|-Rhy Fill 1       ||-Rhy Fig 3

  Q  E E  E  E E E   +Q    E   E   E   E  E S S   Q  E E E E E E
|------------------|----------------------------|----------------|
|------------------|----------------------------|----------------|
|-5--5-5--x--x-5-5-|-(5)------------------x-5-5-|-5--5-5-5-5-5-5-|
|----5-5--x--x-5-5-|-(5)------------------x-5-5-|-5--5-5-5-5-5-5-|
|-3--3-3--x--x-3-3-|-(3)------------------x-3-3-|-3--3-3-3-3-3-3-|
|------------------|------<4>-<4>-<4>-<4>-------|----------------|
|
| Q  E E +Q    E E   +Q    E   E  +E   Q    E     Q  E E E E E E
|----------------0-|-(0)-------3--(3)--0--------|------0-------0-|
|------------------|-------1----------------1---|-1--1---3-1-----|
|------0-(0)-------|------------------------0---|-0----------0---|
|----2---------2---|----------------------------|----------------|
|-3----------------|----------------------------|----------------|
|------------------|----------------------------|----------------|


   E  E E   E  +E   E  Q      W                 H       +E   e E S  S
|---------------------------|-----------------|-----------------------||
|---------------------------|-----------------|-----------------------||
|--5--5-5-/12-(12)-12-12\---|-----------------|-------------\7-7-9-11-||
|--5--5-5-------------------|-5---------------|-5-------(5)-----------||
|--3--3-3-/10-(10)-10-10\---|-5---------------|-5-------(5)-----------||
|---------------------------|-3---------------|-3-------(3)-----------||
|                                                      end Rhy Fig 3A-|
|
| +E  E E   E  +E   Q     E   E E E E E E E E   E E E E  q     q
|-(0)-------3--(3)--0-------|-----------------|-----------------------||
|-----1---------------------|-----------------|-----------------------||
|-------0-----------------0-|-----------------|-----------------------||
|-------------------------0-|-5-5---5-5-5---5-|-5-5---5--5-----4------||
|---------------------------|-5-5---5-5-5---5-|-5-5---5--5-----4------||
|---------------------------|-3-3---3-3-3---3-|-3-3---3--3-----2------||
                                                        end Rhy Fig 3-|

 Interlude
w/Rhy Fig 1
  Gtr II
              ~~~~~~~~~~~~~~
                                            |-3--|
  E E  E E E  Q.        +H         +E   e E S S  S
|--------------------|-----------------------------|
|-8------------------|-----------------------------|
|---9-11-7-9s12------|-(12)-------(12)-\7-7-7h9h11-|
|--------------------|-----------------------------|
|--------------------|-----------------------------|
|--------------------|-----------------------------|


  E E  E E E  E  +E.    +S
|-------------------------------|
|-8-----------------------------|
|---9-11-7-9s12-(12)---(12)b14r=|
|-------------------------------|
|-------------------------------|
|-------------------------------|


    ~~~~~~~~~~~~~~                     PM
   +H         +E   E E E    E      +E  E  E    E  E     +E  S  S
|------------------------|---------------------------------------|
|----------------------8-|-10pb12r(10)p8-10b12---10b12r(10)-8h10-|
|-(12)-------(12)-/7-9---|---------------------------------------|
|------------------------|---------------------------------------|
|------------------------|---------------------------------------|
|------------------------|---------------------------------------|


  ~~
                    |-3-|
  Q.     E +E   E E S S S
|-------------------------|
|-8------8-(8)\-----------|
|---------------0-0-0h2h4-|
|-------------------------|
|-------------------------|
|-------------------------|


                                                   Verse 3
  PM                                              |-w/Rhy Fig 2
  E E E E Q      a     +E  +E    W                  W
|------------------------------|-----------------||-----------------|
|-3----------------------------|-----------------||-----------------|
|---0-2-0-2b4r==(2)b4==(2)r(2)-|-0---------------||-----------------|
|------------------------------|-----------------||-----------------|
|------------------------------|-----------------||-----------------|
|------------------------------|-----------------||-----------------|


  Gtr III
                           ~~~~~~~~~~~
   E Q   E +E  a Q   E   E Q.     +H           Q.     E +E  a  Q   E
|----------------------|--------------------|--------------------------|
|----------------------|--------------------|--------------------------|
|-/7-7---7-(7)-7h9---7s|=4-4------(4)-------|-/9------9-(9)-9h11---9s==|
|----------------------|--------------------|--------------------------|
|----------------------|--------------------|--------------------------|
|----------------------|--------------------|--------------------------|



    ~~~~~~~~~~~~~~~~~~~~~~~                     ~~
  E Q.     +H          +Q     Q   E E E E   Q   H.
|--------------------|--------------------|------------------|
|--------------------|------------8-8-----|------------------|
|-5-5------(5)-------|-(5)---/9-------9p7-|-----7------------|
|--------------------|--------------------|-9----------------|
|--------------------|--------------------|------------------|
|--------------------|--------------------|------------------|

                    |-w/Rhy Fig 2 (1st 7 bars)
   ~~~                ~~
  +Q    E E Q   E E   H.           E E    Q   E E +E  a Q   E
|-------------------|------------------|-----------------------|
|-------------------|------------------|-----------------------|
|-(7)---7-9-7---7-9-|-7------------7s4-|-/7---7-7-(7)-7h9---7s=|
|-------------------|------------------|-----------------------|
|-------------------|------------------|-----------------------|
|-------------------|------------------|-----------------------|


    ~~~~~~~~~~~                            ~
  E Q.     +H          Q   a Q   Q   E E   W
|--------------------|-------------------|-----------------|
|--------------------|-------------------|-----------------|
|-4-4------(4)-------|-----7h9---9---9s5-|-5---------------|
|--------------------|-9-----------------|-----------------|
|--------------------|-------------------|-----------------|
|--------------------|-------------------|-----------------|

                                          |-w/Rhy Fills 1
   ~~~                 ~                    ~~
  +Q     Q   E E E E   H       Q.     S S   H.            E E
|--------------------|--------------------|-------------------||
|------------8-8-----|--------------------|-------------------||
|-(5)---/9-------9p7-|-7-------9------7h9p|=7-------------7-9-||
|--------------------|--------------------|-------------------||
|--------------------|--------------------|-------------------||
|--------------------|--------------------|-------------------||


 Chorus
w/Rhy Figs 3 + 3A
  ~~~~~~~~~~~~~~~~~~~~~~~                ~
  W                  +H.           E E   W
|------------------|-------------------|------------------|
|------------------|-------------------|------------------|
|-7----------------|-(7)-----------7s6S|=5----------------|
|------------------|-------------------|------------------|
|------------------|-------------------|------------------|
|------------------|-------------------|------------------|


   ~~~                            ~~~~~~~~~~~~~~~~~~~~~
  +H.                  E  E       Q.     E  +H
|------------------------------|----------------------|
|------------------------(8)s==|=13-----13-(13)-------|
|-(5)--------------------------|----------------------|
|------------------------------|----------------------|
|------------------------------|----------------------|
|------------------------------|----------------------|


 ~~~~~~
   +E   Q     E  +E   Q      S  S
|-----------------------------------|
|-(13)-13----13-(13)-13-----12h13p==|
|-----------------------------------|
|-----------------------------------|
|-----------------------------------|
|-----------------------------------|


   ~~~~~~~~~~~~~
   H        +Q.      S  S    H        H
|-------------------------|------------------------||
|-12-------(12)-----12h13p|=12---------------------||
|-------------------------|------------------------||
|-------------------------|------------------------||
|-------------------------|------------------------||
|-------------------------|------------------------||


 Guitar Solo
  E5                                            G5
  Gtr I
  E E  E E E  E E  E     E   E E  E   E   E   E E
  | |    | |  |    |     |   |    |       |     |
  / /    / /  /    /     /   /    /       /     /

  Gtr II
              ~~~~~~~~~~~~~~~~~~~~~~~~~~~
  E E  E E E  Q    E    +E   Q    E  +E   E   E E
|--------------------|-----------------------/7-8-|
|-8------------------|----------------------------|
|---9-11-7-9s12---12-|-(12)-12---12-(12)-12\------|
|--------------------|----------------------------|
|--------------------|----------------------------|
|--------------------|----------------------------|


                                          F#5
  E  E E      E E  E E E   E  E E E    Q    E  E
  |  |        | |  |   |   |  |   |    |    |  |
  /  /        / /  /   /   /  /   /    /    /  x

       |-3-|
  E  E S S S  E E  E E E   E  E E E a  q    E  E
|-8-10-7h8p7----7--------|------7h8-8s10------10--|
|------------10---10-8-7-|-8-10-----------/12-----|
|------------------------|------------------------|
|------------------------|------------------------|
|------------------------|------------------------|
|------------------------|------------------------|


  E5
      E E  E  E  E E      E       E
      | |     |  | |              |
      / /     /  / /              /

      ~~
   a  Q    E  E  Q   a a  E      +E
|-10h12---12-10-12-------14b16==(14)r-|
|----------------------x--------------|
|--------------------x----------------|
|-------------------------------------|
|-------------------------------------|
|-------------------------------------|


                                  C5
    E E    E    E     E E    E    E    E E   E   E E E   E   E
      |         |     | |         |    | |       | | |       |
      /         /     / /         /    / /       / / /       /

    |------3-------|  |----3----|      |---3---|   |---3---|
    Q    Q    E    E  Q    Q    Q      Q   Q   Q   Q   Q   Q
|-\12---10---12---10-12--------10---|-/8---7---5----------------|
|-------------------------12--------|--------------8---6---5----|
|-----------------------------------|---------------------------|
|-----------------------------------|---------------------------|
|-----------------------------------|---------------------------|
|-----------------------------------|---------------------------|


  E   E    E  E E E   E   E
      |       |   |       |
      /       /   /       /

                |---3---|
  S S S S +E  E Q   Q   Q
|-8p7-5---------------------|
|-------8-(8)-6-5-----------|
|-------------------7---5---|
|---------------------------|
|---------------------------|
|---------------------------|


  C5
  E     E   E      E   E      E   E      E     E  E E E  E   E  E E
  |     |          |   |      |          |     |  |   |  |   |    |
  /     /          /   /      /          /     /  /   /  /   /    /

  E    +E  +E     +E  +E     +E  +E     +E    +H        +Q      E E
|-------------------------------------------|------------------/7-8-|
|-------------------------------------------|-----------------------|
|-4b5==(4)r(4)b5==(4)r(4)b5==(4)r(4)b5==(4)r|=(4)-------(4)\--------|
|-------------------------------------------|-----------------------|
|-------------------------------------------|-----------------------|
|-------------------------------------------|-----------------------|


w/Rhy Fig 1
       |-3-|
   E E S S S  E E  E E E   E  E E E a  q     E  E
|-10-8-7h8p7----7--------|------7-8-8s10-------10-|
|------------10---10-8-7-|-8-10------------/12----|
|------------------------|------------------------|
|------------------------|------------------------|
|------------------------|------------------------|
|------------------------|------------------------|


      ~~
                                      |------3-------|
   a  Q    E  E  E  E      +Q         Q    Q    E    E  Q    E  E
|-10h12---12-10-12-14b16==(14)r---|-\12---10---12---10-12------10-|
|---------------------------------|-------------------------12----|
|---------------------------------|-------------------------------|
|---------------------------------|-------------------------------|
|---------------------------------|-------------------------------|
|---------------------------------|-------------------------------|


   |---3---|   |---3---|
   Q   Q   Q   Q   Q   Q     S S S S S S E   E E  E E
|-\8---7---5---------------|---------7h8---/10---12---|
|--------------8---6---5---|-5h6p5-8-----5-----5------|
|--------------------------|--------------------------|
|--------------------------|--------------------------|
|--------------------------|--------------------------|
|--------------------------|--------------------------|


    ~~~~~~~
                 |----3----|      |----3-----|
    Q    Q    a  q    q    q      E  E    a  E  +Q     +Q      E E
|------------------------------|-----------------------------------|
|------------------------------|---------------------------------8-|
|-/12---12------12---12---12---|-12-12------12-(12)---(12)\---/9---|
|-/12---12---12h14---12---10---|--9-10---10h12-(12)---(12)\--------|
|------------------------------|-----------------------------------|
|------------------------------|-----------------------------------|


  Gtr II
                                               ~
   Q      E     E      +E   +S  S E    S   S   Q  E E  E  Q   E
|--------------------------------------------|------------------|
|-10b12--10b12-10b12==(10)r(10)p8------8h=10-|-8--8----8--------|
|---------------------------------9----------|------9-----7---6-|
|--------------------------------------------|------------------|
|--------------------------------------------|------------------|
|--------------------------------------------|------------------|
|
| Gtr I
|  q      E     E      +Q         E   +E       q  E E +Q    E E
|--------------------------------------------|------------------|
|--------------------------------------------|------------------|
|--7------x-----7------(7)--------7b9r(7)----|-7--x-7-(7)---7-6-|
|--7------x-----7------(7)-------------------|-7--x-7-(7)---7-6-|
|--5------x-----5------(5)-------------------|-5--x-5-(5)---4-4-|
|--------------------------------------------|------------------|


  ~
          |----3-----|                |----3-----|
  Q  E E  Q  Q       Q       E Q   E  Q    Q     Q
|--------------------------|-------------------/12-|
|--------------------------|---8-----10----8-------|
|-5--7-5-/9--7-----/10-----|-9-----9---------------|
|--------------------------|-----------------------|
|--------------------------|-----------------------|
|--------------------------|-----------------------|
|
| q  E E +Q    E       +E    q   E E +E  E   Q
|--------------------------|-----------------------|
|--------------------------|-----------------------|
|-5--x-5-(5)---5b7r====(5)-|-5---x-5-(5)-5---5-----|
|-5--x-5-(5)---------------|-5---x-5-(5)-5---5-----|
|-3--x-3-(3)---------------|-3---x-3-(3)-3---3-----|
|--------------------------|-----------------------|


    ~
                 |----3-----|
  E Q   E a a a  Q  Q     a Q
|---------------------------------|
|-8-8---8--------8----------------|
|-------------x-----7-----7h9-----|
|-----------x-------%2