Beyond Guitar

Click here to sign up for our newsletter

September by Naudo

Free Guitar Tab From BeyondGuitar.com!

September, Arranged by Naudo, as played on YouTube.

Tired of wrong, confusing, or incorrect tabs? Me too! 
This tab has been written by a person with a Masters Degree in Music. Sweet!

A video guitar lesson to accompany this tab can be found at:
http://www.beyondguitar.com/September_Naudo.html

Intro:

|-------------------------|
|-------------------------|
|-------------------------|
|-------------------------|
|-------------------------|
|-X-X-X\------------------|
	flamenco strum

Verse 1:

|---2---------------------|-2---4-2-4----------2---|
|---2---5-3-5-------------|-2---5-3-5----------2---|
|---2---4-2-4-------------|-2---4-2-4--------2-----|
|-0-0---------------------|-0----------------2-----|
|-------4-2-4------0-0----|-----4-2-4--------------|
|--------------0-2-----2--|------------0-1-2-------|