Beyond Guitar

Click here to sign up for our newsletter

Teardrops on my Guitar by Taylor Swift

Free Guitar Tab From BeyondGuitar.com!

-------------------------------------------------------------------------------
		     TEARDROPS ON MY GUITAR - Taylor Swift
-------------------------------------------------------------------------------
This tab has been edited and checked for accuracy by BeyondGuitar.com.

Tuning: Capo On 3rd

Intro

  (G)             (Em7)           (Cadd9)         (D/F#)
e|-----------------------------------------------------------------|
B|-------3---------------3---------------3---------------3---------|
G|-----0-------0-------0-------0-------0-------0-------2-------2p0-|
D|---0-------0---0---2-------2---2---2-------2---2---0-------0-----|
A|---------------------------------3-------3-----------------------|
E|-3-------3-------0-------0-----------------------2-------2-------|


Verses 1  & 2

  (G)             (Em7)           (Cadd9)         (D/F#)
e|-----------------------------3-----------------------------------|
B|-------3---------------3-------3-------3---------------3---------|
G|-----0-------0-------0---------------0-------0-------2-------2p0-|
D|---0-------0---0---2-------2-------2-------2---2---0-------0-----| x2
A|---------------------------------3-------3-----------------------|
E|-3-------3-------0-------0-----------------------2-------2-------|

  (Em)            (C)             (G)             (D/F#)
e|---------0-------------------------------------------------------|
B|-------0---------------1---------------3-------3-------3---------|
G|-----0-------0-------0-------0-------0-------0-------2-------2p0-|
D|---2-------2---2---2-------0---0---0-------0-------0-------0-----|
A|-----------------3-------3---------------------------------------|
E|-0-------------------------------3-------3-------2-------2-------|


Chorus:

  (G)             (D/F#)          (Em)            (C)
e|---------------------------------------0-------------------------|
B|-------3---------------3-------------------------------1---------|
G|-----0-------0-------2-------2p0-----0-------0-------0-------0---|
D|---0-------0---0---0-------0-------2-------2---2---2-------0---0-| x2
A|-------------------------------------------------3-------3-------|
E|-3-------3-------2-------2-------0-------0-----------------------|


Verse 3

  (G)             (Em7)           (C)             (D/F#)
e|---------------------------------------0-------------------------|
B|-------3---------------3-------------------------------3---------|
G|-----0-------0-------0-------0-------0-------0-------2-------2p0-|
D|---0-------0---0---2-------2---2---2-------2---2---0-------0-----|
A|---------------------------------3-------3-----------------------|
E|-3-------3-------0-------0-----------------------2-------2-------|

  (G)             (Em7)           (C)             (D/F#)
e|-----------------------3-----------------------------------------|
B|-------3-------------------------------1---------------3---------|
G|-----0-------0-------0-------0-------0-------0-------2-------2p0-|
D|---0-------0---0---2-------2---2---2-------2---2---0-------0-----|
A|---------------------------------3-------3-----------------------|
E|-3-------3-------0-------0-----------------------2-------2-------|

  (Em)            (C)             (G)             (D/F#)
e|---------0-------------------------------------------------------|
B|-------0---------------1---------------3-------3-------3---------|
G|-----0-------0-------0-------0-------0-------0-------2-------2p0-|
D|---2-------2---2---2-------0---0---0-------0-------0-------0-----|
A|-----------------3-------3---------------------------------------|
E|-0-------------------------------3-------3-------2-------2-------|


Chorus:

  (G)             (D/F#)          (Em)            (C)
e|---------------------------------------0-------------------------|
B|-------3---------------3-------------------------------1---------|
G|-----0-------0-------2-------2p0-----0-------0-------0-------0---|
D|---0-------0---0---0-------0-------2-------2---2---2-------0---0-| x2
A|-------------------------------------------------3-------3-------|
E|-3-------3-------2-------2-------0-------0-----------------------|


[Guitar Solo]

  (G)             (Em7)           (Cadd9)         (D/F#)
e|-----------------------------------------------------------------|
B|-------3---------------3---------------3---------------3---------|
G|-----0-------0-------0-------0-------0-------0-------2-------2p0-|
D|---0-------0---0---2-------2---2---2-------2---2---0-------0-----|
A|---------------------------------3-------3-----------------------|
E|-3-------3-------0-------0-----------------------2-------2-------|

  (G)             (Em7)           (Cadd9)         (D/F#)
e|-----------------------------3-----------------------------------|
B|-------3---------------3-------3-------3---------------3---------|
G|-----0-------0-------0---------------0-------0-------2-------2p0-|
D|---0-------0---0---2-------2-------2-------2---2---0-------0-----| x2
A|---------------------------------3-------3-----------------------|
E|-3-------3-------0-------0-----------------------2-------2-------|


Bridge:

  (Em)            (C)             (G)             (D/F#)
e|---------0-------------------------------------------------------|
B|-------0---------------1---------------3-------3-------3---------|
G|-----0-------0-------0-------0-------0-------0-------2-------2p0-|
D|---2-------2---2---2-------0---0---0-------0-------0-------0-----|
A|-----------------3-------3---------------------------------------|
E|-0-------------------------------3-------3-------2-------2-------|


2nd Chorus:

  (G)             (D/F#)          (Em)            (C)
e|---------------------------------------0-------------------------|
B|-------3---------------3-------------------------------1---------|
G|-----0-------0-------2-------2p0-----0-------0-------0-------0---|
D|---0-------0---0---0-------0-------2-------2---2---2-------0---0-| x3
A|-------------------------------------------------3-------3-------|
E|-3-------3-------2-------2-------0-------0-----------------------|


Outro:

  (G)             (Em7)           (Cadd9)         (D/F#)            (G)
e|-----------------------3---------------------------------0---------3-|
B|-------3-------------------------------3---------------------------3-|
G|-----0-------0-------0-------0-------0-------0-------2-------2-0---0-|
D|---0-------0---0---2-------2---2---2-------2---2---0---0---0-------0-|
A|---------------------------------3-------3-----------------------0h2-|
E|-3-------3-------0-------0-----------------------2-----------------3-|

| /  slide up
| \  slide down
| h  hammer-on
| p  pull-off
| ~  vibrato
| +  harmonic
| x  Mute note
===============================================================================

Verse 1:
Drew looks at me, I fake a smile so he won't see
That I want and I'm needing everything that we should be
I'll bet she's beautiful, that girl he talks about
And she's got everything that I have to live without

Verse 2:
Drew talks to me, I laugh cause it's so damn funny
That I can't even see anyone when he's with me
He says he's so in love, he's finally got it right,
I wonder if he knows he's all I think about at night

Chorus:
He's the reason for the teardrops on my guitar
The only thing that keeps me wishing on a wishing star
He's the song in the car I keep singing, don't know why I do

Verse 3:
Drew walks by me, can he tell that I can't breathe?
And there he goes, so perfectly,
The kind of flawless I wish I could be
She'd better hold him tight, give him all her love
Look in those beautiful eyes and know she's lucky cause

Chorus:
He's the reason for the teardrops on my guitar
The only thing that keeps me wishing on a wishing star
He's the song in the car I keep singing, don't know why I do

[Guitar Solo]

Bridge:
So I drive home alone, as I turn out the light
I'll put his picture down and maybe
Get some sleep tonight

2nd Chorus:
He's the reason for the teardrops on my guitar
The only one who's got enough of me to break my heart
He's the song in the car I keep singing, don't know why I do
He's the time taken up, but there's never enough
And he's all that I need to fall into

Outro:
Drew looks at me, I fake a smile so he won't see