Beyond Guitar

Click here to sign up for our newsletter

Today Was a FairyTale by Taylor Swift

Free Guitar Tab From BeyondGuitar.com!

Today Was a Fairy Tale, by Taylor Swift

This tab has been edited and checked for accuracy by BeyondGuitar.com.

No Capo

Intro
Guitar 1 Acoustic     Guitar 2 Acoustic with treble
x2                    x2
E-----3-3--3-2----    E---------------------|
B-----3-3--3-3----    B---------------------|
G-----0-0--0-2----    G---------------------|
D-----0-2--0-0----    D---------------------|
A-----2-3--2-x----    A-----2-3--3-2-0------|
E-----3-0--3-x----    E--3-3----------3-0---|

Verse Guitar 1
x2
E-----3-3--3-2----|
B-----3-3--3-3----|
G-----0-0--0-2----|
D-----0-2--0-0----|
A-----2-3--2-x----|
E-----3-0--3-x----|

Guitar 3 Electric with tad bit of distortion

Inter-break

E----3-2-----3-2------3-2-----3-2---5/7\5-------|
B-------3-1-----3--------3-1--------------------|
G----------------2------------------------------|
D-----------------------------------------------|
A-----------------------------------------------|
E-----------------------------------------------|

e|-3--2---------3--2-----------3--2-----------3--2----7--5----7--------------|
B|------3--1----------3--------------3--1------------------------------------|
G|-----------------------2---------------------------------------------------|
D|---------------------------------------------------------------------------|
A|---------------------------------------------------------------------------|
E|---------------------------------------------------------------------------|